  0
SECTION
  2
HEADER
  9
$ACADVER
  1
AC1009
  9
$EXTMAX
 10
70.0
 20
70.0
 30
0.0
  9
$EXTMIN
 10
0.0
 20
-8.0
 30
0.0
  9
$INSUNITS
 70
     4
  9
$LUNITS
 70
     2
  9
$LUPREC
 70
     4
  9
$MEASUREMENT
 70
     1
  0
ENDSEC
  0
SECTION
  2
TABLES
  0
TABLE
  2
LAYER
 70
     1
  0
LAYER
  2
0
 70
     0
 62
     7
  6
Continuous
  0
LAYER
  2
Default
 70
     0
 62
    14
  6
Continuous
  0
ENDTAB
  0
TABLE
  2
APPID
 70
     1
  0
APPID
  2
ACAD
 70
     0
  0
ENDTAB
  0
ENDSEC
  0
SECTION
  2
ENTITIES
  0
POLYLINE
  8
Default
 66
     1
 10
0.0
 20
0.0
 30
0.0
 70
     1
  0
VERTEX
  8
Default
 10
0.0
 20
0.0
 42
0.0
  0
VERTEX
  8
Default
 10
70.0
 20
0.0
 42
0.0
  0
VERTEX
  8
Default
 10
70.0
 20
70.0
 42
0.0
  0
VERTEX
  8
Default
 10
0.0
 20
70.0
 42
0.0
  0
SEQEND
  0
POLYLINE
  8
Default
 66
     1
 10
0.0
 20
0.0
 30
0.0
 70
     1
  0
VERTEX
  8
Default
 10
28.0
 20
4.0
 42
0.0
  0
VERTEX
  8
Default
 10
42.0
 20
4.0
 42
0.0
  0
VERTEX
  8
Default
 10
42.0
 20
8.0
 42
0.0
  0
VERTEX
  8
Default
 10
28.0
 20
8.0
 42
0.0
  0
SEQEND
  0
CIRCLE
  8
Default
 10
5.0
 20
5.0
 30
0.0
 40
1.5
  0
CIRCLE
  8
Default
 10
65.0
 20
5.0
 30
0.0
 40
1.5
  0
CIRCLE
  8
Default
 10
65.0
 20
65.0
 30
0.0
 40
1.5
  0
CIRCLE
  8
Default
 10
5.0
 20
65.0
 30
0.0
 40
1.5
  0
CIRCLE
  8
Default
 10
27.0
 20
41.0
 30
0.0
 40
1.5
  0
POLYLINE
  8
Default
 66
     1
 10
0.0
 20
0.0
 30
0.0
 70
     0
  0
VERTEX
  8
Default
 10
0.0
 20
0.0
  0
VERTEX
  8
Default
 10
0.0
 20
10.0
  0
VERTEX
  8
Default
 10
5.0
 20
18.0
  0
VERTEX
  8
Default
 10
5.0
 20
52.0
  0
VERTEX
  8
Default
 10
0.0
 20
60.0
  0
VERTEX
  8
Default
 10
0.0
 20
70.0
  0
VERTEX
  8
Default
 10
10.0
 20
70.0
  0
VERTEX
  8
Default
 10
20.0
 20
55.0
  0
VERTEX
  8
Default
 10
50.0
 20
55.0
  0
VERTEX
  8
Default
 10
60.0
 20
70.0
  0
VERTEX
  8
Default
 10
70.0
 20
70.0
  0
VERTEX
  8
Default
 10
70.0
 20
60.0
  0
VERTEX
  8
Default
 10
65.0
 20
52.0
  0
VERTEX
  8
Default
 10
65.0
 20
18.0
  0
VERTEX
  8
Default
 10
70.0
 20
10.0
  0
VERTEX
  8
Default
 10
70.0
 20
0.0
  0
VERTEX
  8
Default
 10
55.0
 20
0.0
  0
VERTEX
  8
Default
 10
50.0
 20
-8.0
  0
VERTEX
  8
Default
 10
20.0
 20
-8.0
  0
VERTEX
  8
Default
 10
15.0
 20
0.0
  0
VERTEX
  8
Default
 10
0.0
 20
0.0
  0
SEQEND
  0
POLYLINE
  8
Default
 66
     1
 10
0.0
 20
0.0
 30
0.0
 70
     1
  0
VERTEX
  8
Default
 10
28.0
 20
-4.0
 42
0.0
  0
VERTEX
  8
Default
 10
42.0
 20
-4.0
 42
0.0
  0
VERTEX
  8
Default
 10
42.0
 20
0.0
 42
0.0
  0
VERTEX
  8
Default
 10
28.0
 20
0.0
 42
0.0
  0
SEQEND
  0
POLYLINE
  8
Default
 66
     1
 10
0.0
 20
0.0
 30
0.0
 70
     0
  0
VERTEX
  8
Default
 10
55.0
 20
47.0
  0
VERTEX
  8
Default
 10
49.0
 20
47.0
  0
VERTEX
  8
Default
 10
49.0
 20
44.0
  0
VERTEX
  8
Default
 10
52.0
 20
44.0
  0
VERTEX
  8
Default
 10
52.0
 20
39.0
  0
VERTEX
  8
Default
 10
49.0
 20
39.0
  0
VERTEX
  8
Default
 10
49.0
 20
36.0
  0
VERTEX
  8
Default
 10
52.0
 20
36.0
  0
VERTEX
  8
Default
 10
52.0
 20
31.0
  0
VERTEX
  8
Default
 10
49.0
 20
31.0
  0
VERTEX
  8
Default
 10
49.0
 20
28.0
  0
VERTEX
  8
Default
 10
52.0
 20
28.0
  0
VERTEX
  8
Default
 10
52.0
 20
23.0
  0
VERTEX
  8
Default
 10
49.0
 20
23.0
  0
VERTEX
  8
Default
 10
49.0
 20
20.0
  0
VERTEX
  8
Default
 10
52.0
 20
20.0
  0
VERTEX
  8
Default
 10
52.0
 20
15.0
  0
VERTEX
  8
Default
 10
49.0
 20
15.0
  0
VERTEX
  8
Default
 10
49.0
 20
12.0
  0
VERTEX
  8
Default
 10
55.0
 20
12.0
  0
VERTEX
  8
Default
 10
55.0
 20
47.0
  0
SEQEND
  0
POLYLINE
  8
Default
 66
     1
 10
0.0
 20
0.0
 30
0.0
 70
     0
  0
VERTEX
  8
Default
 10
15.0
 20
47.0
  0
VERTEX
  8
Default
 10
21.0
 20
47.0
  0
VERTEX
  8
Default
 10
21.0
 20
44.0
  0
VERTEX
  8
Default
 10
18.0
 20
44.0
  0
VERTEX
  8
Default
 10
18.0
 20
39.0
  0
VERTEX
  8
Default
 10
21.0
 20
39.0
  0
VERTEX
  8
Default
 10
21.0
 20
36.0
  0
VERTEX
  8
Default
 10
18.0
 20
36.0
  0
VERTEX
  8
Default
 10
18.0
 20
31.0
  0
VERTEX
  8
Default
 10
21.0
 20
31.0
  0
VERTEX
  8
Default
 10
21.0
 20
28.0
  0
VERTEX
  8
Default
 10
18.0
 20
28.0
  0
VERTEX
  8
Default
 10
18.0
 20
23.0
  0
VERTEX
  8
Default
 10
21.0
 20
23.0
  0
VERTEX
  8
Default
 10
21.0
 20
20.0
  0
VERTEX
  8
Default
 10
18.0
 20
20.0
  0
VERTEX
  8
Default
 10
18.0
 20
15.0
  0
VERTEX
  8
Default
 10
21.0
 20
15.0
  0
VERTEX
  8
Default
 10
21.0
 20
12.0
  0
VERTEX
  8
Default
 10
15.0
 20
12.0
  0
VERTEX
  8
Default
 10
15.0
 20
47.0
  0
SEQEND
  0
POLYLINE
  8
Default
 66
     1
 10
0.0
 20
0.0
 30
0.0
 70
     1
  0
VERTEX
  8
Default
 10
10.0
 20
3.0
 42
0.0
  0
VERTEX
  8
Default
 10
15.0
 20
3.0
 42
0.0
  0
VERTEX
  8
Default
 10
15.0
 20
6.0
 42
0.0
  0
VERTEX
  8
Default
 10
10.0
 20
6.0
 42
0.0
  0
SEQEND
  0
POLYLINE
  8
Default
 66
     1
 10
0.0
 20
0.0
 30
0.0
 70
     1
  0
VERTEX
  8
Default
 10
55.0
 20
3.0
 42
0.0
  0
VERTEX
  8
Default
 10
60.0
 20
3.0
 42
0.0
  0
VERTEX
  8
Default
 10
60.0
 20
6.0
 42
0.0
  0
VERTEX
  8
Default
 10
55.0
 20
6.0
 42
0.0
  0
SEQEND
  0
POLYLINE
  8
Default
 66
     1
 10
0.0
 20
0.0
 30
0.0
 70
     1
  0
VERTEX
  8
Default
 10
8.0
 20
47.0
 42
0.0
  0
VERTEX
  8
Default
 10
11.0
 20
47.0
 42
0.0
  0
VERTEX
  8
Default
 10
11.0
 20
52.0
 42
0.0
  0
VERTEX
  8
Default
 10
8.0
 20
52.0
 42
0.0
  0
SEQEND
  0
POLYLINE
  8
Default
 66
     1
 10
0.0
 20
0.0
 30
0.0
 70
     1
  0
VERTEX
  8
Default
 10
59.0
 20
47.0
 42
0.0
  0
VERTEX
  8
Default
 10
62.0
 20
47.0
 42
0.0
  0
VERTEX
  8
Default
 10
62.0
 20
52.0
 42
0.0
  0
VERTEX
  8
Default
 10
59.0
 20
52.0
 42
0.0
  0
SEQEND
  0
POLYLINE
  8
Default
 66
     1
 10
0.0
 20
0.0
 30
0.0
 70
     1
  0
VERTEX
  8
Default
 10
8.0
 20
37.0
 42
0.0
  0
VERTEX
  8
Default
 10
11.0
 20
37.0
 42
0.0
  0
VERTEX
  8
Default
 10
11.0
 20
42.0
 42
0.0
  0
VERTEX
  8
Default
 10
8.0
 20
42.0
 42
0.0
  0
SEQEND
  0
POLYLINE
  8
Default
 66
     1
 10
0.0
 20
0.0
 30
0.0
 70
     1
  0
VERTEX
  8
Default
 10
59.0
 20
37.0
 42
0.0
  0
VERTEX
  8
Default
 10
62.0
 20
37.0
 42
0.0
  0
VERTEX
  8
Default
 10
62.0
 20
42.0
 42
0.0
  0
VERTEX
  8
Default
 10
59.0
 20
42.0
 42
0.0
  0
SEQEND
  0
POLYLINE
  8
Default
 66
     1
 10
0.0
 20
0.0
 30
0.0
 70
     1
  0
VERTEX
  8
Default
 10
8.0
 20
28.0
 42
0.0
  0
VERTEX
  8
Default
 10
11.0
 20
28.0
 42
0.0
  0
VERTEX
  8
Default
 10
11.0
 20
32.0
 42
0.0
  0
VERTEX
  8
Default
 10
8.0
 20
32.0
 42
0.0
  0
SEQEND
  0
POLYLINE
  8
Default
 66
     1
 10
0.0
 20
0.0
 30
0.0
 70
     1
  0
VERTEX
  8
Default
 10
59.0
 20
28.0
 42
0.0
  0
VERTEX
  8
Default
 10
62.0
 20
28.0
 42
0.0
  0
VERTEX
  8
Default
 10
62.0
 20
32.0
 42
0.0
  0
VERTEX
  8
Default
 10
59.0
 20
32.0
 42
0.0
  0
SEQEND
  0
POLYLINE
  8
Default
 66
     1
 10
0.0
 20
0.0
 30
0.0
 70
     1
  0
VERTEX
  8
Default
 10
8.0
 20
18.0
 42
0.0
  0
VERTEX
  8
Default
 10
11.0
 20
18.0
 42
0.0
  0
VERTEX
  8
Default
 10
11.0
 20
23.0
 42
0.0
  0
VERTEX
  8
Default
 10
8.0
 20
23.0
 42
0.0
  0
SEQEND
  0
POLYLINE
  8
Default
 66
     1
 10
0.0
 20
0.0
 30
0.0
 70
     1
  0
VERTEX
  8
Default
 10
59.0
 20
18.0
 42
0.0
  0
VERTEX
  8
Default
 10
62.0
 20
18.0
 42
0.0
  0
VERTEX
  8
Default
 10
62.0
 20
23.0
 42
0.0
  0
VERTEX
  8
Default
 10
59.0
 20
23.0
 42
0.0
  0
SEQEND
  0
POLYLINE
  8
Default
 66
     1
 10
0.0
 20
0.0
 30
0.0
 70
     1
  0
VERTEX
  8
Default
 10
32.0
 20
49.0
 42
0.0
  0
VERTEX
  8
Default
 10
38.0
 20
49.0
 42
0.0
  0
VERTEX
  8
Default
 10
38.0
 20
52.0
 42
0.0
  0
VERTEX
  8
Default
 10
32.0
 20
52.0
 42
0.0
  0
SEQEND
  0
ENDSEC
  0
EOF
